Tag Archives: drive

Dawn Landes – Drive – intro guitar tabDawn Landes – tabulatura do intro

Tabbed by: Amcclave
Email: amcclave@gmail.com

First tab ever, heard the song on house last night.
I have very little musical ability but this sounds right to me… you’ll
have to listen to get the timing right.

Tuning: EADGBe

e|--------2------------------------------------------------------------------|
B|--------3----2------3------------------------------------------------------|
G|----0h2------2------0------------------------------------------------------|
D|--0----------2------0------------------------------------------------------|
A|-----------0---0------------0----------------------------------------------|
E|------------------3-----3-3------------------------------------------------|

Other version:

e|---------------------------------------------------------------------------|
B|--------5------------------------------------------------------------------|
G|--------5----4-------2-----------------------------------------------------|
D|----3h5------5-------3-----------------------------------------------------|
A|-3-----------5-------3-----------------------------------------------------|
E|----------3-------1---------1h3~~------------------------------------------|
Strojenie standardowe.

Autor: Amcclave
Email: amcclave@gmail.com

e|--------2------------------------------------------------------------------|
B|--------3----2------3------------------------------------------------------|
G|----0h2------2------0------------------------------------------------------|
D|--0----------2------0------------------------------------------------------|
A|-----------0---0------------0----------------------------------------------|
E|------------------3-----3-3------------------------------------------------|

Druga wersja:

e|---------------------------------------------------------------------------|
B|--------5------------------------------------------------------------------|
G|--------5----4-------2-----------------------------------------------------|
D|----3h5------5-------3-----------------------------------------------------|
A|-3-----------5-------3-----------------------------------------------------|
E|----------3-------1---------1h3~~------------------------------------------|